Acordes con Cejilla
 

La cejilla es una técnica para formar acordes, y se utiliza en cualquier estilo musical. La palabra cejilla se refiere a que se deben pisar simultáneamente varias cuerdas en un mismo espacio en el diapasón. Para ello lo que debemos hacer es utilizar un único dedo (por lo general el índice de la mano izquierda) y pisar las cuerdas que te indiquen con toda su superficie, y de esa forma estableciendo una base del acorde.

El llegar a dominar la técnica de cejilla puede parecerte difícil al principio, debemos tener paciencia y colocar los acordes muy lentamente comprobando que suenan bien todas las cuerdas. Una vez conseguida la posición se volverá a intentar, y así sucesivamente. Cuando ya tengas bien practicada la posición intentarás colocar ése acorde junto con otros (más adelante), sin que se noten mucho los cambios.

A continuación te presento un ejercicio o tipo de método general para practicar los acordes con cejilla. El acorde que nos servirá para practicarla es Si menor (Bm):

||--------|------1-|--------|--------|------      |-2-|
||--------|------1-|----2---|--------|------- |-3-|
||--------|------1-|--------|----4---|------ |-4-|
||--------|------1-|--------|----3---|----- |-4-|
||--------|------1-|--------|--------|---- |-2-|
||--------|--------|--------|--------|----- |---|

1er. Paso. Coloca la posición del acorde de La menor (Am) con el 2do. 3er. y 4to. dedo, colocando la posición del acorde a partir del 3er. traste:


||--------|----------|----------|----------|-------
||--------|----------|-----2----|----------|--------
||--------|----------|----------|-----4----|-------
||--------|----------|----------|-----3----|------
||--------|----------|----------|----------|-----
||--------|----------|----------|----------|-------
2do. Paso. Después coloca la cejilla en el 2do. espacio muy cerca del 2do. traste con el dedo 1 (dedo índice de la mano izquierda), a partir de la 5ta cuerda:

||--------|--------1-|----------|----------|-------
||--------|--------1-|-----2----|----------|--------
||--------|--------1-|----------|-----4----|-------
||--------|--------1-|----------|-----3----|------
||--------|--------1-|----------|----------|-----
||--------|----------|----------|----------|-------
3er. Paso. Al tener la posición lista arpegia el acorde hacia abajo con tu púa - plumilleos hacia abajo (y/o con el pulgar), verificando que las cuerdas suenen bien y luego lo rasgueas. Abajo te lo indico en tablatura:

|--------------------------2---------2---------||
|--------------------3---------------3---------||
|--------------4---------------------4---------||
|--------4---------------------------4---------||
|--2---------------------------------2---------||
|----------------------------------------------||

Escucha el ejercicio al tiempo
en que lo practicas

4to. Paso.
Vuélvelo a intentar una y otra vez hasta que lo tengas dominado.





Añadir comentario acerca de esta página:
Tu nombre:
Tu página web:
Tu mensaje:

 
  HOY NADAMAS UVO 95037 visitantes PON MAS COSAS WEY COPYRIGHT PWG 2009 ELWAMO TODOS LOS DERECHOS RESERVADOS  
 
=> ¿Desea una página web gratis? Pues, haz clic aquí! <=